ISO-10303-21;
HEADER;
FILE_DESCRIPTION (( 'STEP AP203' ),
    '1' );
FILE_NAME ('Entry thread seal - Metric and NPT.100 Metric.STEP',
    '2013-02-07T10:14:37',
    ( '' ),
    ( '' ),
    'SwSTEP 2.0',
    'SolidWorks 2012',
    '' );
FILE_SCHEMA (( 'CONFIG_CONTROL_DESIGN' ));
ENDSEC;

DATA;
#1 = AXIS2_PLACEMENT_3D ( 'NONE', #78, #80, #79 ) ;
#2 = PRODUCT_DEFINITION_SHAPE ( 'NONE', 'NONE',  #237 ) ;
#3 = DESIGN_CONTEXT ( 'detailed design', #96, 'design' ) ;
#4 = ADVANCED_FACE ( 'NONE', ( #160 ), #164, .T. ) ;
#5 = EDGE_CURVE ( 'NONE', #119, #121, #163, .T. ) ;
#6 = EDGE_CURVE ( 'NONE', #122, #125, #161, .T. ) ;
#7 = EDGE_CURVE ( 'NONE', #120, #119, #118, .T. ) ;
#8 = AXIS2_PLACEMENT_3D ( 'NONE', #83, #68, #81 ) ;
#9 = EDGE_CURVE ( 'NONE', #120, #127, #162, .T. ) ;
#10 = EDGE_CURVE ( 'NONE', #127, #121, #165, .T. ) ;
#11 = EDGE_CURVE ( 'NONE', #121, #119, #168, .T. ) ;
#12 = EDGE_CURVE ( 'NONE', #124, #122, #170, .T. ) ;
#13 = EDGE_CURVE ( 'NONE', #125, #122, #171, .T. ) ;
#14 = EDGE_CURVE ( 'NONE', #127, #120, #167, .T. ) ;
#15 = EDGE_CURVE ( 'NONE', #124, #126, #174, .T. ) ;
#16 = ADVANCED_FACE ( 'NONE', ( #173 ), #178, .T. ) ;
#17 = ADVANCED_FACE ( 'NONE', ( #175, #179 ), #77, .F. ) ;
#18 = ADVANCED_FACE ( 'NONE', ( #176 ), #182, .F. ) ;
#19 = DATE_TIME_ROLE ( 'classification_date' ) ;
#20 = DIRECTION ( 'NONE',  ( 0.0000000000000000000, 0.0000000000000000000, 1.000000000000000000 ) ) ;
#21 = DIRECTION ( 'NONE',  ( -1.000000000000000000, -0.0000000000000000000, -0.0000000000000000000 ) ) ;
#22 = PERSON_AND_ORGANIZATION_ROLE ( 'design_supplier' ) ;
#23 = APPROVAL_ROLE ( '' ) ;
#24 = APPROVAL_STATUS ( 'not_yet_approved' ) ;
#25 = CARTESIAN_POINT ( 'NONE',  ( -1.000000000000007800, 7.378496964862802100E-015, -60.25000000000000000 ) ) ;
#26 = CARTESIAN_POINT ( 'NONE',  ( -1.000000000000006700, 60.25000000000000000, 0.0000000000000000000 ) ) ;
#27 = CARTESIAN_POINT ( 'NONE',  ( -39.90653472252495200, 6.123233995736766100E-015, -50.00000000000000000 ) ) ;
#28 = DIRECTION ( 'NONE',  ( -1.000000000000000000, -0.0000000000000000000, -0.0000000000000000000 ) ) ;
#29 = CARTESIAN_POINT ( 'NONE',  ( -1.000000000000007800, 6.123233995736766100E-015, -50.00000000000000000 ) ) ;
#30 = CARTESIAN_POINT ( 'NONE',  ( 0.9999999999999940000, 0.0000000000000000000, 50.00000000000000000 ) ) ;
#31 = PLANE ( 'NONE',  #233 ) ;
#32 = CARTESIAN_POINT ( 'NONE',  ( -1.000000000000007800, 0.0000000000000000000, 50.00000000000000000 ) ) ;
#33 = CARTESIAN_POINT ( 'NONE',  ( -1.000000000000007800, 0.0000000000000000000, 60.25000000000000000 ) ) ;
#34 = DIRECTION ( 'NONE',  ( -1.000000000000000000, -0.0000000000000000000, -0.0000000000000000000 ) ) ;
#35 = CARTESIAN_POINT ( 'NONE',  ( -39.90653472252495200, 0.0000000000000000000, 50.00000000000000000 ) ) ;
#36 = DIRECTION ( 'NONE',  ( -1.000000000000000000, -0.0000000000000000000, -0.0000000000000000000 ) ) ;
#37 = CARTESIAN_POINT ( 'NONE',  ( 0.9999999999999940000, 0.0000000000000000000, 0.0000000000000000000 ) ) ;
#38 = CARTESIAN_POINT ( 'NONE',  ( -39.90653472252495200, 0.0000000000000000000, 60.25000000000000000 ) ) ;
#39 = DIRECTION ( 'NONE',  ( -1.000000000000000000, -0.0000000000000000000, -0.0000000000000000000 ) ) ;
#40 = CARTESIAN_POINT ( 'NONE',  ( -1.000000000000007800, 0.0000000000000000000, 0.0000000000000000000 ) ) ;
#41 = DIRECTION ( 'NONE',  ( 0.0000000000000000000, 0.0000000000000000000, 1.000000000000000000 ) ) ;
#42 = DIRECTION ( 'NONE',  ( -1.000000000000000000, -0.0000000000000000000, -0.0000000000000000000 ) ) ;
#43 = CARTESIAN_POINT ( 'NONE',  ( 0.9999999999999940000, 0.0000000000000000000, 0.0000000000000000000 ) ) ;
#44 = CARTESIAN_POINT ( 'NONE',  ( -39.90653472252495200, 0.0000000000000000000, 0.0000000000000000000 ) ) ;
#45 = DIRECTION ( 'NONE',  ( -1.000000000000000000, -0.0000000000000000000, -0.0000000000000000000 ) ) ;
#46 = DIRECTION ( 'NONE',  ( 0.0000000000000000000, 0.0000000000000000000, 1.000000000000000000 ) ) ;
#47 = CARTESIAN_POINT ( 'NONE',  ( -39.90653472252495200, 7.378496964862802100E-015, -60.25000000000000000 ) ) ;
#48 = APPROVAL_ROLE ( '' ) ;
#49 = PERSON_AND_ORGANIZATION_ROLE ( 'classification_officer' ) ;
#50 = PERSON_AND_ORGANIZATION_ROLE ( 'creator' ) ;
#51 = SECURITY_CLASSIFICATION_LEVEL ( 'unclassified' ) ;
#52 = DIRECTION ( 'NONE',  ( 0.0000000000000000000, 0.0000000000000000000, 1.000000000000000000 ) ) ;
#53 = CARTESIAN_POINT ( 'NONE',  ( 0.9999999999999940000, 7.378496964862802100E-015, -60.25000000000000000 ) ) ;
#54 = DIRECTION ( 'NONE',  ( 0.0000000000000000000, 0.0000000000000000000, 1.000000000000000000 ) ) ;
#55 = DIRECTION ( 'NONE',  ( 0.0000000000000000000, 0.0000000000000000000, 1.000000000000000000 ) ) ;
#56 = DIRECTION ( 'NONE',  ( 0.0000000000000000000, 0.0000000000000000000, 1.000000000000000000 ) ) ;
#57 = DIRECTION ( 'NONE',  ( -1.000000000000000000, -0.0000000000000000000, -0.0000000000000000000 ) ) ;
#58 = DIRECTION ( 'NONE',  ( -1.000000000000000000, -0.0000000000000000000, -0.0000000000000000000 ) ) ;
#59 = CARTESIAN_POINT ( 'NONE',  ( 0.9999999999999940000, 0.0000000000000000000, 0.0000000000000000000 ) ) ;
#60 = DIRECTION ( 'NONE',  ( -1.000000000000000000, 0.0000000000000000000, -0.0000000000000000000 ) ) ;
#61 = DIRECTION ( 'NONE',  ( -0.0000000000000000000, 0.0000000000000000000, 1.000000000000000000 ) ) ;
#62 = CARTESIAN_POINT ( 'NONE',  ( 0.9999999999999933400, 50.00000000000000000, 0.0000000000000000000 ) ) ;
#63 = DIRECTION ( 'NONE',  ( 0.0000000000000000000, 0.0000000000000000000, 1.000000000000000000 ) ) ;
#64 = DIRECTION ( 'NONE',  ( -1.000000000000000000, -0.0000000000000000000, -0.0000000000000000000 ) ) ;
#65 = CARTESIAN_POINT ( 'NONE',  ( -1.000000000000007800, 0.0000000000000000000, 0.0000000000000000000 ) ) ;
#66 = DIRECTION ( 'NONE',  ( -1.000000000000000000, -0.0000000000000000000, -0.0000000000000000000 ) ) ;
#67 = DIRECTION ( 'NONE',  ( -1.000000000000000000, -0.0000000000000000000, -0.0000000000000000000 ) ) ;
#68 = DIRECTION ( 'NONE',  ( -1.000000000000000000, -0.0000000000000000000, -0.0000000000000000000 ) ) ;
#69 = APPROVAL_STATUS ( 'not_yet_approved' ) ;
#70 = CARTESIAN_POINT ( 'NONE',  ( -1.000000000000007800, 0.0000000000000000000, 0.0000000000000000000 ) ) ;
#71 = DIRECTION ( 'NONE',  ( -1.000000000000000000, -0.0000000000000000000, -0.0000000000000000000 ) ) ;
#72 = DIRECTION ( 'NONE',  ( 0.0000000000000000000, 0.0000000000000000000, -1.000000000000000000 ) ) ;
#73 = CARTESIAN_POINT ( 'NONE',  ( 0.9999999999999940000, 0.0000000000000000000, 60.25000000000000000 ) ) ;
#74 = DIRECTION ( 'NONE',  ( 1.000000000000000000, 0.0000000000000000000, 0.0000000000000000000 ) ) ;
#75 = CARTESIAN_POINT ( 'NONE',  ( -39.90653472252495200, 0.0000000000000000000, 0.0000000000000000000 ) ) ;
#76 = CARTESIAN_POINT ( 'NONE',  ( 0.9999999999999940000, 6.123233995736766100E-015, -50.00000000000000000 ) ) ;
#77 = PLANE ( 'NONE',  #229 ) ;
#78 = CARTESIAN_POINT ( 'NONE',  ( -39.90653472252495200, 0.0000000000000000000, 0.0000000000000000000 ) ) ;
#79 = DIRECTION ( 'NONE',  ( 0.0000000000000000000, 0.0000000000000000000, 1.000000000000000000 ) ) ;
#80 = DIRECTION ( 'NONE',  ( -1.000000000000000000, -0.0000000000000000000, -0.0000000000000000000 ) ) ;
#81 = DIRECTION ( 'NONE',  ( 0.0000000000000000000, 0.0000000000000000000, 1.000000000000000000 ) ) ;
#82 = CARTESIAN_POINT ( 'NONE',  ( -39.90653472252495200, 0.0000000000000000000, 0.0000000000000000000 ) ) ;
#83 = CARTESIAN_POINT ( 'NONE',  ( -1.000000000000007800, 0.0000000000000000000, 0.0000000000000000000 ) ) ;
#84 = DIRECTION ( 'NONE',  ( 0.0000000000000000000, 0.0000000000000000000, 1.000000000000000000 ) ) ;
#85 = DIRECTION ( 'NONE',  ( 0.0000000000000000000, 0.0000000000000000000, 1.000000000000000000 ) ) ;
#86 = CARTESIAN_POINT ( 'NONE',  ( 0.0000000000000000000, 0.0000000000000000000, 0.0000000000000000000 ) ) ;
#87 =( LENGTH_UNIT ( ) NAMED_UNIT ( * ) SI_UNIT ( .MILLI., .METRE. ) );
#88 =( NAMED_UNIT ( * ) PLANE_ANGLE_UNIT ( ) SI_UNIT ( $, .RADIAN. ) );
#89 =( NAMED_UNIT ( * ) SI_UNIT ( $, .STERADIAN. ) SOLID_ANGLE_UNIT ( ) );
#90 = APPLICATION_PROTOCOL_DEFINITION ( 'international standard', 'config_control_design', 1994, #91 ) ;
#91 = APPLICATION_CONTEXT ( 'configuration controlled 3d designs of mechanical parts and assemblies' ) ;
#92 = DIRECTION ( 'NONE',  ( 0.0000000000000000000, 0.0000000000000000000, 1.000000000000000000 ) ) ;
#93 = DIRECTION ( 'NONE',  ( 1.000000000000000000, 0.0000000000000000000, 0.0000000000000000000 ) ) ;
#94 = MECHANICAL_CONTEXT ( 'NONE', #91, 'mechanical' ) ;
#95 = PERSON_AND_ORGANIZATION_ROLE ( 'design_owner' ) ;
#96 = APPLICATION_CONTEXT ( 'configuration controlled 3d designs of mechanical parts and assemblies' ) ;
#97 = APPLICATION_PROTOCOL_DEFINITION ( 'international standard', 'config_control_design', 1994, #96 ) ;
#98 = APPROVAL_STATUS ( 'not_yet_approved' ) ;
#99 = APPROVAL_ROLE ( '' ) ;
#100 = PERSON_AND_ORGANIZATION_ROLE ( 'creator' ) ;
#101 = DATE_TIME_ROLE ( 'creation_date' ) ;
#102 = CARTESIAN_POINT ( 'NONE',  ( 0.9999999999999940000, 0.0000000000000000000, 0.0000000000000000000 ) ) ;
#103 = DIRECTION ( 'NONE',  ( -1.000000000000000000, -0.0000000000000000000, -0.0000000000000000000 ) ) ;
#104 = CC_DESIGN_PERSON_AND_ORGANIZATION_ASSIGNMENT ( #211, #49, ( #247 ) ) ;
#105 = CC_DESIGN_DATE_AND_TIME_ASSIGNMENT ( #215, #19, ( #247 ) ) ;
#106 = APPROVAL ( #24, 'UNSPECIFIED' ) ;
#107 = CC_DESIGN_APPROVAL ( #106, ( #247 ) ) ;
#108 = CC_DESIGN_SECURITY_CLASSIFICATION ( #247, ( #242 ) ) ;
#109 = PRODUCT_RELATED_PRODUCT_CATEGORY ( 'detail', '', ( #113 ) ) ;
#110 = ADVANCED_BREP_SHAPE_REPRESENTATION ( 'Entry thread seal - Metric and NPT.100 Metric', ( #112, #235 ), #234 ) ;
#111 = UNCERTAINTY_MEASURE_WITH_UNIT (LENGTH_MEASURE( 1.000000000000000100E-005 ), #87, 'distance_accuracy_value', 'NONE');
#112 = MANIFOLD_SOLID_BREP ( 'Revolve1', #123 ) ;
#113 = PRODUCT ( 'Entry thread seal - Metric and NPT.100 Metric', 'Entry thread seal - Metric and NPT.100 Metric', '', ( #94 ) ) ;
#114 = PERSON ( 'UNSPECIFIED', 'UNSPECIFIED', 'UNSPECIFIED', ('UNSPECIFIED'), ('UNSPECIFIED'), ('UNSPECIFIED') ) ;
#115 = AXIS2_PLACEMENT_3D ( 'NONE', #65, #64, #63 ) ;
#116 = ADVANCED_FACE ( 'NONE', ( #180 ), #184, .F. ) ;
#117 = ADVANCED_FACE ( 'NONE', ( #181, #185 ), #31, .F. ) ;
#118 = LINE ( 'NONE', #47, #166 ) ;
#119 = VERTEX_POINT ( 'NONE', #25 ) ;
#120 = VERTEX_POINT ( 'NONE', #53 ) ;
#121 = VERTEX_POINT ( 'NONE', #33 ) ;
#122 = VERTEX_POINT ( 'NONE', #32 ) ;
#123 = CLOSED_SHELL ( 'NONE', ( #116, #16, #4, #117, #18, #17 ) ) ;
#124 = VERTEX_POINT ( 'NONE', #30 ) ;
#125 = VERTEX_POINT ( 'NONE', #29 ) ;
#126 = VERTEX_POINT ( 'NONE', #76 ) ;
#127 = VERTEX_POINT ( 'NONE', #73 ) ;
#128 = EDGE_LOOP ( 'NONE', ( #152, #153, #154, #155 ) ) ;
#129 = EDGE_LOOP ( 'NONE', ( #148, #149 ) ) ;
#130 = EDGE_LOOP ( 'NONE', ( #156, #157 ) ) ;
#131 = EDGE_LOOP ( 'NONE', ( #144, #145, #146, #147 ) ) ;
#132 = EDGE_LOOP ( 'NONE', ( #158, #159 ) ) ;
#133 = EDGE_LOOP ( 'NONE', ( #137, #136, #138, #139 ) ) ;
#134 = EDGE_LOOP ( 'NONE', ( #140, #141, #142, #143 ) ) ;
#135 = EDGE_LOOP ( 'NONE', ( #150, #151 ) ) ;
#136 = ORIENTED_EDGE ( 'NONE', *, *, #249, .T. ) ;
#137 = ORIENTED_EDGE ( 'NONE', *, *, #248, .F. ) ;
#138 = ORIENTED_EDGE ( 'NONE', *, *, #13, .T. ) ;
#139 = ORIENTED_EDGE ( 'NONE', *, *, #12, .F. ) ;
#140 = ORIENTED_EDGE ( 'NONE', *, *, #14, .T. ) ;
#141 = ORIENTED_EDGE ( 'NONE', *, *, #7, .T. ) ;
#142 = ORIENTED_EDGE ( 'NONE', *, *, #11, .F. ) ;
#143 = ORIENTED_EDGE ( 'NONE', *, *, #10, .F. ) ;
#144 = ORIENTED_EDGE ( 'NONE', *, *, #7, .F. ) ;
#145 = ORIENTED_EDGE ( 'NONE', *, *, #9, .T. ) ;
#146 = ORIENTED_EDGE ( 'NONE', *, *, #10, .T. ) ;
#147 = ORIENTED_EDGE ( 'NONE', *, *, #5, .F. ) ;
#148 = ORIENTED_EDGE ( 'NONE', *, *, #6, .F. ) ;
#149 = ORIENTED_EDGE ( 'NONE', *, *, #13, .F. ) ;
#150 = ORIENTED_EDGE ( 'NONE', *, *, #11, .T. ) ;
#151 = ORIENTED_EDGE ( 'NONE', *, *, #5, .T. ) ;
#152 = ORIENTED_EDGE ( 'NONE', *, *, #249, .F. ) ;
#153 = ORIENTED_EDGE ( 'NONE', *, *, #15, .F. ) ;
#154 = ORIENTED_EDGE ( 'NONE', *, *, #12, .T. ) ;
#155 = ORIENTED_EDGE ( 'NONE', *, *, #6, .T. ) ;
#156 = ORIENTED_EDGE ( 'NONE', *, *, #14, .F. ) ;
#157 = ORIENTED_EDGE ( 'NONE', *, *, #9, .F. ) ;
#158 = ORIENTED_EDGE ( 'NONE', *, *, #15, .T. ) ;
#159 = ORIENTED_EDGE ( 'NONE', *, *, #248, .T. ) ;
#160 = FACE_OUTER_BOUND ( 'NONE', #131, .T. ) ;
#161 = CIRCLE ( 'NONE', #8, 50.00000000000000000 ) ;
#162 = CIRCLE ( 'NONE', #223, 60.25000000000000000 ) ;
#163 = CIRCLE ( 'NONE', #115, 60.25000000000000000 ) ;
#164 = CYLINDRICAL_SURFACE ( 'NONE', #1, 60.25000000000000000 ) ;
#165 = LINE ( 'NONE', #38, #169 ) ;
#166 = VECTOR ( 'NONE', #66, 1000.000000000000000 ) ;
#167 = CIRCLE ( 'NONE', #226, 60.25000000000000000 ) ;
#168 = CIRCLE ( 'NONE', #224, 60.25000000000000000 ) ;
#169 = VECTOR ( 'NONE', #45, 1000.000000000000000 ) ;
#170 = LINE ( 'NONE', #35, #172 ) ;
#171 = CIRCLE ( 'NONE', #225, 50.00000000000000000 ) ;
#172 = VECTOR ( 'NONE', #34, 1000.000000000000000 ) ;
#173 = FACE_OUTER_BOUND ( 'NONE', #134, .T. ) ;
#174 = CIRCLE ( 'NONE', #227, 50.00000000000000000 ) ;
#175 = FACE_OUTER_BOUND ( 'NONE', #130, .T. ) ;
#176 = FACE_OUTER_BOUND ( 'NONE', #128, .T. ) ;
#177 = CIRCLE ( 'NONE', #230, 50.00000000000000000 ) ;
#178 = CYLINDRICAL_SURFACE ( 'NONE', #228, 60.25000000000000000 ) ;
#179 = FACE_BOUND ( 'NONE', #132, .T. ) ;
#180 = FACE_OUTER_BOUND ( 'NONE', #133, .T. ) ;
#181 = FACE_BOUND ( 'NONE', #129, .T. ) ;
#182 = CYLINDRICAL_SURFACE ( 'NONE', #231, 50.00000000000000000 ) ;
#183 = VECTOR ( 'NONE', #28, 1000.000000000000000 ) ;
#184 = CYLINDRICAL_SURFACE ( 'NONE', #232, 50.00000000000000000 ) ;
#185 = FACE_OUTER_BOUND ( 'NONE', #135, .T. ) ;
#186 = LINE ( 'NONE', #27, #183 ) ;
#187 = SHAPE_DEFINITION_REPRESENTATION ( #2, #110 ) ;
#188 = ORGANIZATION ( 'UNSPECIFIED', 'UNSPECIFIED', '' ) ;
#189 = PERSON_AND_ORGANIZATION ( #114, #188 ) ;
#190 = PERSON_AND_ORGANIZATION ( #114, #188 ) ;
#191 = APPROVAL_PERSON_ORGANIZATION ( #190, #238, #99 ) ;
#192 = COORDINATED_UNIVERSAL_TIME_OFFSET ( 0, 0, .AHEAD. ) ;
#193 = LOCAL_TIME ( 10, 14, 37.00000000000000000, #192 ) ;
#194 = CALENDAR_DATE ( 2013, 7, 2 ) ;
#195 = DATE_AND_TIME ( #194, #193 ) ;
#196 = APPROVAL_DATE_TIME ( #195, #238 ) ;
#197 = PERSON_AND_ORGANIZATION ( #114, #188 ) ;
#198 = COORDINATED_UNIVERSAL_TIME_OFFSET ( 0, 0, .AHEAD. ) ;
#199 = LOCAL_TIME ( 10, 14, 37.00000000000000000, #198 ) ;
#200 = CALENDAR_DATE ( 2013, 7, 2 ) ;
#201 = DATE_AND_TIME ( #200, #199 ) ;
#202 = PERSON_AND_ORGANIZATION ( #114, #188 ) ;
#203 = APPROVAL_PERSON_ORGANIZATION ( #202, #243, #48 ) ;
#204 = COORDINATED_UNIVERSAL_TIME_OFFSET ( 0, 0, .AHEAD. ) ;
#205 = LOCAL_TIME ( 10, 14, 37.00000000000000000, #204 ) ;
#206 = CALENDAR_DATE ( 2013, 7, 2 ) ;
#207 = DATE_AND_TIME ( #206, #205 ) ;
#208 = APPROVAL_DATE_TIME ( #207, #243 ) ;
#209 = PERSON_AND_ORGANIZATION ( #114, #188 ) ;
#210 = PERSON_AND_ORGANIZATION ( #114, #188 ) ;
#211 = PERSON_AND_ORGANIZATION ( #114, #188 ) ;
#212 = COORDINATED_UNIVERSAL_TIME_OFFSET ( 0, 0, .AHEAD. ) ;
#213 = LOCAL_TIME ( 10, 14, 37.00000000000000000, #212 ) ;
#214 = CALENDAR_DATE ( 2013, 7, 2 ) ;
#215 = DATE_AND_TIME ( #214, #213 ) ;
#216 = PERSON_AND_ORGANIZATION ( #114, #188 ) ;
#217 = APPROVAL_PERSON_ORGANIZATION ( #216, #106, #23 ) ;
#218 = COORDINATED_UNIVERSAL_TIME_OFFSET ( 0, 0, .AHEAD. ) ;
#219 = LOCAL_TIME ( 10, 14, 37.00000000000000000, #218 ) ;
#220 = CALENDAR_DATE ( 2013, 7, 2 ) ;
#221 = DATE_AND_TIME ( #220, #219 ) ;
#222 = APPROVAL_DATE_TIME ( #221, #106 ) ;
#223 = AXIS2_PLACEMENT_3D ( 'NONE', #37, #36, #52 ) ;
#224 = AXIS2_PLACEMENT_3D ( 'NONE', #70, #21, #20 ) ;
#225 = AXIS2_PLACEMENT_3D ( 'NONE', #40, #57, #56 ) ;
#226 = AXIS2_PLACEMENT_3D ( 'NONE', #59, #58, #46 ) ;
#227 = AXIS2_PLACEMENT_3D ( 'NONE', #43, #42, #41 ) ;
#228 = AXIS2_PLACEMENT_3D ( 'NONE', #44, #39, #54 ) ;
#229 = AXIS2_PLACEMENT_3D ( 'NONE', #62, #60, #61 ) ;
#230 = AXIS2_PLACEMENT_3D ( 'NONE', #102, #103, #85 ) ;
#231 = AXIS2_PLACEMENT_3D ( 'NONE', #82, #67, #55 ) ;
#232 = AXIS2_PLACEMENT_3D ( 'NONE', #75, #71, #84 ) ;
#233 = AXIS2_PLACEMENT_3D ( 'NONE', #26, #74, #72 ) ;
#234 =( GEOMETRIC_REPRESENTATION_CONTEXT ( 3 ) GLOBAL_UNCERTAINTY_ASSIGNED_CONTEXT ( ( #111 ) ) GLOBAL_UNIT_ASSIGNED_CONTEXT ( ( #87, #88, #89 ) ) REPRESENTATION_CONTEXT ( 'NONE', 'WORKASPACE' ) );
#235 = AXIS2_PLACEMENT_3D ( 'NONE', #86, #92, #93 ) ;
#236 = CC_DESIGN_PERSON_AND_ORGANIZATION_ASSIGNMENT ( #189, #95, ( #113 ) ) ;
#237 = PRODUCT_DEFINITION ( 'UNKNOWN', '', #242, #3 ) ;
#238 = APPROVAL ( #98, 'UNSPECIFIED' ) ;
#239 = CC_DESIGN_APPROVAL ( #238, ( #237 ) ) ;
#240 = CC_DESIGN_PERSON_AND_ORGANIZATION_ASSIGNMENT ( #197, #100, ( #237 ) ) ;
#241 = CC_DESIGN_DATE_AND_TIME_ASSIGNMENT ( #201, #101, ( #237 ) ) ;
#242 = PRODUCT_DEFINITION_FORMATION_WITH_SPECIFIED_SOURCE ( 'ANY', '', #113, .NOT_KNOWN. ) ;
#243 = APPROVAL ( #69, 'UNSPECIFIED' ) ;
#244 = CC_DESIGN_APPROVAL ( #243, ( #242 ) ) ;
#245 = CC_DESIGN_PERSON_AND_ORGANIZATION_ASSIGNMENT ( #209, #50, ( #242 ) ) ;
#246 = CC_DESIGN_PERSON_AND_ORGANIZATION_ASSIGNMENT ( #210, #22, ( #242 ) ) ;
#247 = SECURITY_CLASSIFICATION ( '', '', #51 ) ;
#248 = EDGE_CURVE ( 'NONE', #126, #124, #177, .T. ) ;
#249 = EDGE_CURVE ( 'NONE', #126, #125, #186, .T. ) ;
ENDSEC;
END-ISO-10303-21;
